Nhấn Enter để xem tất cả
Hợp Âm Chuẩn duy trì kinh phí hoạt động dựa trên quảng cáo. Rất mong bạn có thể ủng hộ Hợp Âm Chuẩn bằng cách tắt chương trình chặn quảng cáo đi. Cảm ơn bạn rất nhiều!
Để cảm ơn đến các bạn đã đóng góp và ủng hộ cho Hợp Âm Chuẩn trong thời gian qua, ban quản trị xin gửi tặng một món quà nhỏ cho 10 thành viên có đóng góp nhiều nhất. Click để xem chi tiết chương trình Tri Ân Thành Viên Lần 2.

Giúp Anh Trả Lời Những Câu Hỏi (Giúp Em Trả Lời Những Câu Hỏi)

Hợp âm của phamhung075

  • 3 người bình chọn
    ≣≣
     
    Hop am chuan Capo 3 
    Am/F D7sus2 D7sus4 Am7 Am7/G Dm7 G/E A7sus4 Gadd9 G6 F7M 
    --0------0--------------------------1----------------------------------0 
    --1------1--------1-----1------1----1-----1-------3-------0-----0------1 
    --2------2--------2-----0------0----2-----0-------0-------2-----0------2 
    --3------0--------0-----2------2----0-----0-------2-------0-----2------3 
    ------------------------0-----------------2----------------------------3 
    --1---------------3------------3------------------3-------3-----3------1 
    [C]..Hôm qua anh mơ hay... [Am/F]Tất cả là sự thật... 
    [D7sus2]..Sao môi anh [D7sus4]run... Và nước [C]mắt vẫn tuôn, [Gadd11]... 
    Mắt anh đẫm [Am7]lệ, hy vọng em sẽ [A7sus4]về... 
    Cầu mong mọi [D7sus2]thứ sẽ tốt hơn chứ.. Đừng [G]tệ thêm đi. 
    [C]..Em tay trong tay trao nụ [Am/F]hôn ấy giữa ban ngày. 
    [D7sus2]..Xem ra anh [D7sus4]chẳng còn là [C]gì của em [Gadd11]... 
    Mắt anh nhắm [Am7]lại.. không thể thêm nhẫn [Em]nại, 
    Mặc dù cho [Dm7]em là người con gái anh [G]yêu rất nhiều 
     
    [C].."Một lòng một dạ để yêu ai[G/B] đó quá khó phải không?" 
    Hãy [Am7]trả lời câu hỏi của anh một cách [G6]thật lòng... 
    Ngoài người mà [F]em luôn nói là mãi yêu..[Em]còn một người [Am7]nữa... 
    Người đó đã [Dm7]biết hay chưa đã biết bên em đã [G]có anh chưa? 
     
    [C]..Thôi em đi đi không cần [Am/F]phải nói ra làm gì, 
    [D7sus2]Buông tay anh [D7sus4]ra đừng như thê nữa[C][Gadd11]... 
    Mắt anh nhắm [Am7]lại.. không thể thêm [A7sus4]nhẫn nại, 
    Mặc dù cho [Dm7]em là người con gái anh [G]yêu rất nhiều 
     
    [C].."Một lòng một dạ để yêu ai[G/B] đó quá khó phải không?" 
    Hãy [Am7]trả lời câu hỏi của anh một cách [G6]thật lòng... 
    Ngoài người mà [F]em luôn nói là mãi yêu..[Em]còn một người [Am7]nữa... 
    Người đó đã [Dm7]biết hay chưa đã biết bên em đã [G]có anh chưa? 
     
    [C]..Chẳng hiểu vì gì mà anh vượt [G/B]khốn khó để yêu em, 
    Bỏ [Am7]qua tất cả để em có hạnh phúc [G6]êm đềm 
    Phải bỏ ngoài [F]tai lời nói chẳng [G]thích nghe [Em]về em như t[Am]hế... 
    Vậy mà cách [Dm7]đây một ngày chính mắt anh thấy mọi [G]thứ đổi thay. 
    [F7M]Chúng ta nay [C]khác rồi..giờ [F7M]hai người hai [G]nơi...~~~~~!!!!! 
     
    INTRO 
    ------3----0-------------0------------------------ 
    --------3-------3--1--3-----3--1--1--------1------ 
    ----------------0--0--------0-----2-----2--2------ 
    -3-5---------2-----------------------2------------ 
    -----------3----------3-----------0--------------- 
    -------------------------------------------------- 
     
    -----------------------3--0--------0-------------- 
    -1--1--1--1------1--3-----------------3--1-------- 
    -2--2--2--2----2----------------0-----0--0-------- 
    -------------0---------------2-------------------- 
    --------------------------3----------------------- 
    -1--------3--------------------------------------- 
     
    ---------------------------------------------------- 
    -1--------1----------0--1-----0--------3-------3--0- 
    -------0--0----------0--------0-----0--0-------0--0- 
    ----2-------------2--------------2-----------2------ 
    -0-------------------------------------------------- 
    ------------------------------0--------------------- 
     
    -0--------0-------0--------------------------------- 
    -1----1---1----------1--------3---------3----------- 
    ----2--------------------2----------0---0----------- 
    ---------------------------------0------0----------- 
    ---------------------------------------------------- 
    -1----------------------------3--------------------- 
     
    Thêm vào
    Chia sẻ
    In ra giấy
    Quản lý
    Cập nhật:
    ngày 17 tháng 02, 2015
    Lượt xem: 303,728 Người đăng: phamhung075 (Hợp Âm Chuẩn đã duyệt)
    Tác giả: Vương Anh Tú Thể loại: Yêu thích: 4872
    Bình luận HAC
    Bình luận Facebook

    Giảm 40% học phí khi sử dụng code hopamchuan_web

    Bài liên quan
    Bài hát hay
    |[Cmaj7]Anh chơi vơi, nơi |[Gmaj7/B]góc phố quen mình từng, |Từng [Am7]là tất cả. Hôm [D]ấy mây
    Vương Thiện, 11 tháng 08, 2018 25,187
    [Am] Đừng rời đôi bàn tay, chưa kịp [Em] ôm nhau phút cuối [Dm7] Đừng rời xa khỏi [G] nhau, như bón
    Trường Nguyễn, 21 tháng 06, 2018 84,865
    Anh đã không [G]giữ được nhiều hạnh phúc cho [D/F#]em Nhiều khi giận [Em]nhau nước mắt [D]em cứ rơi
    Đỗ Xuân Thắng, 24 tháng 06, 2017 33,735
    [F]Có một người vẫn [Em]yêu một người [Dm7]Vẫn đợi chờ dẫu [G]cho người ấy không [C]về [F]Tháng ng
    Ksm, 5 tháng 11, 2017 52,481
    Happy [C]Birthday to [G]You ! Happy [G]Birthday to [C]You ! Happy [C]Birthday Happy [F]Birthday Ha
    Zoker, 8 tháng 08, 2013 53,498
    [Dmaj7]Đã biết chắc sẽ như thế [F#m7]này Thức trắng suốt mấy đêm vì [Em7]em Một lần nữa lại [A]b
    Vương Thiện, 11 tháng 10, 2018 23,745
    Đôi ba lời [Dm7] hát nhớ [G7] nhung Tan [C]vào theo kí [Am7]ức [Dm7]Trách sao [G7] ta đã vụng [C]v
    Bùi Quốc Việt, 8 tháng 04, 2019 38,917
    Chẳng phải [F]em là hồn, của [Am]cây Mang câu [Gm]hát đem đi đùa [Dm7]vui [Bbm] Sống trong bao câu [
    Nguyễn Viết Dũng, 27 tháng 09, 2016 38,289
    Mùa hạ đang [C]trôi qua và em cũng [Bm]đi xa Về đâu tia [Am]nắng mong manh lướt qua thờ [D]ơ để trá
    Duy Võ, 17 tháng 01, 2019 27,068
    Em về [C] chưa đang ở đâu ngoài [G] trời thì đổ mưa Bước chân người [Am] đi, xa dần xa lệ [Em] nhòe
    Võ Trần Quân, 20 tháng 05, 2019 167k
    Hợp âm quá phức tạp? Nhấn vào đây để chuyển sang hợp âm đơn giản! (click để tắt)